  0
SECTION
  2
HEADER
  9
$ACADVER
  1
AC1015
  9
$ACADMAINTVER
 70
     6
  9
$DWGCODEPAGE
  3
ANSI_1254
  9
$INSBASE
 10
0.0
 20
0.0
 30
0.0
  9
$EXTMIN
 10
0.0
 20
0.0
 30
0.0
  9
$EXTMAX
 10
279.4
 20
215.9
 30
0.0
  9
$LIMMIN
 10
0.0
 20
0.0
  9
$LIMMAX
 10
279.4
 20
215.9
  9
$ORTHOMODE
 70
     0
  9
$REGENMODE
 70
     1
  9
$FILLMODE
 70
     1
  9
$QTEXTMODE
 70
     0
  9
$MIRRTEXT
 70
     1
  9
$LTSCALE
 40
1.0
  9
$ATTMODE
 70
     1
  9
$TEXTSIZE
 40
3.5
  9
$TRACEWID
 40
1.0
  9
$TEXTSTYLE
  7
Standard
  9
$CLAYER
  8
0
  9
$CELTYPE
  6
ByLayer
  9
$CECOLOR
 62
   256
  9
$CELTSCALE
 40
1.0
  9
$DISPSILH
 70
     0
  9
$DIMSCALE
 40
1.0
  9
$DIMASZ
 40
3.5
  9
$DIMEXO
 40
1.0
  9
$DIMDLI
 40
3.75
  9
$DIMRND
 40
0.0
  9
$DIMDLE
 40
0.0
  9
$DIMEXE
 40
1.0
  9
$DIMTP
 40
0.0
  9
$DIMTM
 40
0.0
  9
$DIMTXT
 40
3.5
  9
$DIMCEN
 40
2.5
  9
$DIMTSZ
 40
0.0
  9
$DIMTOL
 70
     0
  9
$DIMLIM
 70
     0
  9
$DIMTIH
 70
     1
  9
$DIMTOH
 70
     1
  9
$DIMSE1
 70
     0
  9
$DIMSE2
 70
     0
  9
$DIMTAD
 70
     1
  9
$DIMZIN
 70
     0
  9
$DIMBLK
  1

  9
$DIMASO
 70
     1
  9
$DIMSHO
 70
     1
  9
$DIMPOST
  1

  9
$DIMAPOST
  1

  9
$DIMALT
 70
     0
  9
$DIMALTD
 70
     3
  9
$DIMALTF
 40
0.0393700787
  9
$DIMLFAC
 40
1.0
  9
$DIMTOFL
 70
     1
  9
$DIMTVP
 40
0.0
  9
$DIMTIX
 70
     0
  9
$DIMSOXD
 70
     0
  9
$DIMSAH
 70
     0
  9
$DIMBLK1
  1

  9
$DIMBLK2
  1

  9
$DIMSTYLE
  2
ISO-25
  9
$DIMCLRD
 70
     0
  9
$DIMCLRE
 70
     0
  9
$DIMCLRT
 70
     0
  9
$DIMTFAC
 40
1.0
  9
$DIMGAP
 40
1.524
  9
$DIMJUST
 70
     0
  9
$DIMSD1
 70
     0
  9
$DIMSD2
 70
     0
  9
$DIMTOLJ
 70
     0
  9
$DIMTZIN
 70
     0
  9
$DIMALTZ
 70
     0
  9
$DIMALTTZ
 70
     0
  9
$DIMUPT
 70
     0
  9
$DIMDEC
 70
     2
  9
$DIMTDEC
 70
     2
  9
$DIMALTU
 70
     2
  9
$DIMALTTD
 70
     3
  9
$DIMTXSTY
  7
Standard
  9
$DIMAUNIT
 70
     0
  9
$DIMADEC
 70
     2
  9
$DIMALTRND
 40
0.0
  9
$DIMAZIN
 70
     0
  9
$DIMDSEP
 70
    44
  9
$DIMATFIT
 70
     3
  9
$DIMFRAC
 70
     0
  9
$DIMLDRBLK
  1

  9
$DIMLUNIT
 70
     2
  9
$DIMLWD
 70
    -2
  9
$DIMLWE
 70
    -2
  9
$DIMTMOVE
 70
     0
  9
$LUNITS
 70
     2
  9
$LUPREC
 70
     2
  9
$SKETCHINC
 40
1.0
  9
$FILLETRAD
 40
10.0
  9
$AUNITS
 70
     0
  9
$AUPREC
 70
     2
  9
$MENU
  1
.
  9
$ELEVATION
 40
0.0
  9
$PELEVATION
 40
0.0
  9
$THICKNESS
 40
0.0
  9
$LIMCHECK
 70
     0
  9
$CHAMFERA
 40
0.0
  9
$CHAMFERB
 40
0.0
  9
$CHAMFERC
 40
0.0
  9
$CHAMFERD
 40
0.0
  9
$SKPOLY
 70
     0
  9
$TDCREATE
 40
2460704.460168646
  9
$TDUCREATE
 40
2460704.335168646
  9
$TDUPDATE
 40
2460704.460168877
  9
$TDUUPDATE
 40
2460704.335168877
  9
$TDINDWG
 40
0.0000000116
  9
$TDUSRTIMER
 40
0.0000000116
  9
$USRTIMER
 70
     1
  9
$ANGBASE
 50
0.0
  9
$ANGDIR
 70
     0
  9
$PDMODE
 70
     0
  9
$PDSIZE
 40
-1.0
  9
$PLINEWID
 40
0.0
  9
$SPLFRAME
 70
     0
  9
$SPLINETYPE
 70
     6
  9
$SPLINESEGS
 70
     8
  9
$HANDSEED
  5
B6
  9
$SURFTAB1
 70
     6
  9
$SURFTAB2
 70
     6
  9
$SURFTYPE
 70
     6
  9
$SURFU
 70
     6
  9
$SURFV
 70
     6
  9
$UCSBASE
  2

  9
$UCSNAME
  2

  9
$UCSORG
 10
0.0
 20
0.0
 30
0.0
  9
$UCSXDIR
 10
1.0
 20
0.0
 30
0.0
  9
$UCSYDIR
 10
0.0
 20
1.0
 30
0.0
  9
$UCSORTHOREF
  2

  9
$UCSORTHOVIEW
 70
     0
  9
$UCSORGTOP
 10
0.0
 20
0.0
 30
0.0
  9
$UCSORGBOTTOM
 10
0.0
 20
0.0
 30
0.0
  9
$UCSORGLEFT
 10
0.0
 20
0.0
 30
0.0
  9
$UCSORGRIGHT
 10
0.0
 20
0.0
 30
0.0
  9
$UCSORGFRONT
 10
0.0
 20
0.0
 30
0.0
  9
$UCSORGBACK
 10
0.0
 20
0.0
 30
0.0
  9
$PUCSBASE
  2

  9
$PUCSNAME
  2

  9
$PUCSORG
 10
0.0
 20
0.0
 30
0.0
  9
$PUCSXDIR
 10
1.0
 20
0.0
 30
0.0
  9
$PUCSYDIR
 10
0.0
 20
1.0
 30
0.0
  9
$PUCSORTHOREF
  2

  9
$PUCSORTHOVIEW
 70
     0
  9
$PUCSORGTOP
 10
0.0
 20
0.0
 30
0.0
  9
$PUCSORGBOTTOM
 10
0.0
 20
0.0
 30
0.0
  9
$PUCSORGLEFT
 10
0.0
 20
0.0
 30
0.0
  9
$PUCSORGRIGHT
 10
0.0
 20
0.0
 30
0.0
  9
$PUCSORGFRONT
 10
0.0
 20
0.0
 30
0.0
  9
$PUCSORGBACK
 10
0.0
 20
0.0
 30
0.0
  9
$USERI1
 70
     0
  9
$USERI2
 70
     0
  9
$USERI3
 70
     0
  9
$USERI4
 70
     0
  9
$USERI5
 70
     0
  9
$USERR1
 40
0.0
  9
$USERR2
 40
0.0
  9
$USERR3
 40
0.0
  9
$USERR4
 40
0.0
  9
$USERR5
 40
0.0
  9
$WORLDVIEW
 70
     1
  9
$SHADEDGE
 70
     3
  9
$SHADEDIF
 70
    70
  9
$TILEMODE
 70
     1
  9
$MAXACTVP
 70
    64
  9
$PINSBASE
 10
0.0
 20
0.0
 30
0.0
  9
$PLIMCHECK
 70
     0
  9
$PEXTMIN
 10
1.0000000000E+20
 20
1.0000000000E+20
 30
1.0000000000E+20
  9
$PEXTMAX
 10
-1.0000000000E+20
 20
-1.0000000000E+20
 30
-1.0000000000E+20
  9
$PLIMMIN
 10
0.0
 20
0.0
  9
$PLIMMAX
 10
420.0
 20
297.0
  9
$UNITMODE
 70
     0
  9
$VISRETAIN
 70
     1
  9
$PLINEGEN
 70
     0
  9
$PSLTSCALE
 70
     1
  9
$TREEDEPTH
 70
  3020
  9
$CMLSTYLE
  2
Standard
  9
$CMLJUST
 70
     0
  9
$CMLSCALE
 40
20.0
  9
$PROXYGRAPHICS
 70
     1
  9
$MEASUREMENT
 70
     1
  9
$CELWEIGHT
370
    -1
  9
$ENDCAPS
280
     0
  9
$JOINSTYLE
280
     0
  9
$LWDISPLAY
290
     1
  9
$INSUNITS
 70
     4
  9
$HYPERLINKBASE
  1

  9
$STYLESHEET
  1

  9
$XEDIT
290
     1
  9
$CEPSNTYPE
380
     0
  9
$PSTYLEMODE
290
     1
  9
$FINGERPRINTGUID
  2
{51c70e9d-a050-4654-a4dd-d05f7502cc01}
  9
$VERSIONGUID
  2
{FAEB1C32-E019-11D5-929B-00C0DF256EC4}
  9
$EXTNAMES
290
     1
  9
$PSVPSCALE
 40
0.0
  9
$OLESTARTUP
290
     0
  0
ENDSEC
  0
SECTION
  2
CLASSES
  0
CLASS
  1
ACDBDICTIONARYWDFLT
  2
AcDbDictionaryWithDefault
  3
ObjectDBX Classes
 90
        0
280
     0
281
     0
  0
CLASS
  1
VISUALSTYLE
  2
AcDbVisualStyle
  3
ObjectDBX Classes
 90
     4095
280
     0
281
     0
  0
CLASS
  1
MATERIAL
  2
AcDbMaterial
  3
ObjectDBX Classes
 90
     1153
280
     0
281
     0
  0
CLASS
  1
SCALE
  2
AcDbScale
  3
ObjectDBX Classes
 90
     1153
280
     0
281
     0
  0
CLASS
  1
TABLESTYLE
  2
AcDbTableStyle
  3
ObjectDBX Classes
 90
     4095
280
     0
281
     0
  0
CLASS
  1
MLEADERSTYLE
  2
AcDbMLeaderStyle
  3
ACDB_MLEADERSTYLE_CLASS
 90
     4095
280
     0
281
     0
  0
CLASS
  1
SUN
  2
AcDbSun
  3
SCENEOE
 90
     1153
280
     0
281
     0
  0
CLASS
  1
ACDBPLACEHOLDER
  2
AcDbPlaceHolder
  3
ObjectDBX Classes
 90
        0
280
     0
281
     0
  0
CLASS
  1
LAYOUT
  2
AcDbLayout
  3
ObjectDBX Classes
 90
        0
280
     0
281
     0
  0
ENDSEC
  0
SECTION
  2
TABLES
  0
TABLE
  2
VPORT
  5
8
330
0
100
AcDbSymbolTable
 70
     1
  0
VPORT
  5
29
330
8
100
AcDbSymbolTableRecord
100
AcDbViewportTableRecord
  2
*Active
 70
     0
 10
0.0
 20
0.0
 11
1.0
 21
1.0
 12
139.7
 22
107.95
 13
0.0
 23
0.0
 14
10.0
 24
10.0
 15
10.0
 25
10.0
 16
0.0
 26
0.0
 36
1.0
 17
0.0
 27
0.0
 37
0.0
 40
215.9
 41
1.2941176471
 42
50.0
 43
0.0
 44
0.0
 50
0.0
 51
0.0
 71
     0
 72
  2000
 73
     1
 74
     3
 75
     0
 76
     0
 77
     0
 78
     0
281
     0
 65
     1
110
0.0
120
0.0
130
0.0
111
1.0
121
0.0
131
0.0
112
0.0
122
1.0
132
0.0
 79
     0
146
0.0
  0
ENDTAB
  0
TABLE
  2
LTYPE
  5
5
330
0
100
AcDbSymbolTable
 70
     6
  0
LTYPE
  5
14
330
5
100
AcDbSymbolTableRecord
100
AcDbLinetypeTableRecord
  2
ByBlock
 70
     0
  3

 72
    65
 73
     0
 40
0.0
  0
LTYPE
  5
15
330
5
100
AcDbSymbolTableRecord
100
AcDbLinetypeTableRecord
  2
ByLayer
 70
     0
  3

 72
    65
 73
     0
 40
0.0
  0
LTYPE
  5
16
330
5
100
AcDbSymbolTableRecord
100
AcDbLinetypeTableRecord
  2
Continuous
 70
     0
  3
Solid line
 72
    65
 73
     0
 40
0.0
  0
LTYPE
  5
6E
330
5
100
AcDbSymbolTableRecord
100
AcDbLinetypeTableRecord
  2
HIDDEN
 70
     0
  3
Hidden __ __ __ __ __ __ __ __ __ __ __ __ __ __
 72
    65
 73
     2
 40
1.905
 49
1.27
 74
     0
 49
-0.635
 74
     0
  0
LTYPE
  5
6F
330
5
100
AcDbSymbolTableRecord
100
AcDbLinetypeTableRecord
  2
PHANTOM
 70
     0
  3
Phantom ______  __  __  ______  __  __  ______
 72
    65
 73
     6
 40
12.7
 49
6.35
 74
     0
 49
-1.27
 74
     0
 49
1.27
 74
     0
 49
-1.27
 74
     0
 49
1.27
 74
     0
 49
-1.27
 74
     0
  0
LTYPE
  5
70
330
5
100
AcDbSymbolTableRecord
100
AcDbLinetypeTableRecord
  2
CENTER
 70
     0
  3
Center ____ _ ____ _ ____ _ ____ _ ____ _ ____
 72
    65
 73
     4
 40
10.16
 49
6.35
 74
     0
 49
-1.27
 74
     0
 49
1.27
 74
     0
 49
-1.27
 74
     0
  0
LTYPE
  5
71
330
5
100
AcDbSymbolTableRecord
100
AcDbLinetypeTableRecord
  2
CENTERX2
 70
     0
  3
Center (2x) ________  __  ________  __  _____
 72
    65
 73
     4
 40
20.32
 49
12.7
 74
     0
 49
-2.54
 74
     0
 49
2.54
 74
     0
 49
-2.54
 74
     0
  0
LTYPE
  5
72
330
5
100
AcDbSymbolTableRecord
100
AcDbLinetypeTableRecord
  2
DOT2
 70
     0
  3
Dot (.5x) ........................................
 72
    65
 73
     2
 40
0.635
 49
0.0
 74
     0
 49
-0.635
 74
     0
  0
ENDTAB
  0
TABLE
  2
LAYER
  5
2
330
0
100
AcDbSymbolTable
 70
    17
  0
LAYER
  5
10
330
2
100
AcDbSymbolTableRecord
100
AcDbLayerTableRecord
  2
0
 70
     0
 62
     7
  6
Continuous
370
    -3
390
F
  0
LAYER
  5
73
330
2
100
AcDbSymbolTableRecord
100
AcDbLayerTableRecord
  2
FORMAT
 70
     0
 62
     7
  6
Continuous
370
    -3
390
F
  0
LAYER
  5
74
330
2
100
AcDbSymbolTableRecord
100
AcDbLayerTableRecord
  2
YARDIMCI_GEOMETRI
 70
     0
 62
    -6
  6
Continuous
290
     0
370
    -3
390
F
  0
LAYER
  5
75
330
2
100
AcDbSymbolTableRecord
100
AcDbLayerTableRecord
  2
SAYFA_CERCEVESI
 70
     0
 62
     7
  6
Continuous
370
    25
390
F
  0
LAYER
  5
76
330
2
100
AcDbSymbolTableRecord
100
AcDbLayerTableRecord
  2
ANTET
 70
     0
 62
     7
  6
Continuous
370
    -3
390
F
  0
LAYER
  5
77
330
2
100
AcDbSymbolTableRecord
100
AcDbLayerTableRecord
  2
OLCU
 70
     0
 62
   150
  6
Continuous
370
    -3
390
F
  0
LAYER
  5
78
330
2
100
AcDbSymbolTableRecord
100
AcDbLayerTableRecord
  2
METIN
 70
     0
 62
    96
  6
Continuous
370
    -3
390
F
  0
LAYER
  5
79
330
2
100
AcDbSymbolTableRecord
100
AcDbLayerTableRecord
  2
BALON
 70
     0
 62
     5
  6
Continuous
370
    -3
390
F
  0
LAYER
  5
7A
330
2
100
AcDbSymbolTableRecord
100
AcDbLayerTableRecord
  2
VURGU
 70
     0
 62
     7
  6
Continuous
370
    -3
390
F
  0
LAYER
  5
7B
330
2
100
AcDbSymbolTableRecord
100
AcDbLayerTableRecord
  2
SILIK
 70
     0
 62
     7
  6
Continuous
370
    -3
390
F
  0
LAYER
  5
7C
330
2
100
AcDbSymbolTableRecord
100
AcDbLayerTableRecord
  2
MODEL
 70
     0
 62
     7
  6
Continuous
370
    -3
390
F
  0
LAYER
  5
7D
330
2
100
AcDbSymbolTableRecord
100
AcDbLayerTableRecord
  2
DETAYLANDıRMA
 70
     0
 62
   190
  6
Continuous
370
    -3
390
F
  0
LAYER
  5
7E
330
2
100
AcDbSymbolTableRecord
100
AcDbLayerTableRecord
  2
TOLERANS
 70
     0
 62
   230
  6
Continuous
370
    -3
390
F
  0
LAYER
  5
7F
330
2
100
AcDbSymbolTableRecord
100
AcDbLayerTableRecord
  2
MERKEZ_CIZGILERI
 70
     0
 62
    30
  6
Continuous
370
    -3
390
F
  0
LAYER
  5
80
330
2
100
AcDbSymbolTableRecord
100
AcDbLayerTableRecord
  2
KESIT-DETAY_CIZGILERI
 70
     0
 62
     7
  6
Continuous
370
    -3
390
F
  0
LAYER
  5
81
330
2
100
AcDbSymbolTableRecord
100
AcDbLayerTableRecord
  2
\U+041E\U+0421\U+0415\U+0412\U+042B\U+0415
 70
     0
 62
     7
  6
Continuous
370
    -3
390
F
  0
LAYER
  5
82
330
2
100
AcDbSymbolTableRecord
100
AcDbLayerTableRecord
  2
\U+0412\U+041E\U+0414\U+042F\U+041D\U+042B\U+0415_\U+0417\U+041D\U+0410\U+041A\U+0418
 70
     0
 62
    11
  6
Continuous
370
    -3
390
F
  0
ENDTAB
  0
TABLE
  2
STYLE
  5
3
330
0
100
AcDbSymbolTable
 70
     1
  0
STYLE
  5
11
330
3
100
AcDbSymbolTableRecord
100
AcDbTextStyleTableRecord
  2
Standard
 70
     0
 40
0.0
 41
1.0
 50
0.0
 71
     0
 42
3.5
  3
txt
  4

  0
ENDTAB
  0
TABLE
  2
VIEW
  5
6
330
0
100
AcDbSymbolTable
 70
     0
  0
ENDTAB
  0
TABLE
  2
UCS
  5
7
330
0
100
AcDbSymbolTable
 70
     0
  0
ENDTAB
  0
TABLE
  2
APPID
  5
9
330
0
100
AcDbSymbolTable
 70
     1
  0
APPID
  5
12
330
9
100
AcDbSymbolTableRecord
100
AcDbRegAppTableRecord
  2
ACAD
 70
     0
  0
ENDTAB
  0
TABLE
  2
DIMSTYLE
  5
A
330
0
100
AcDbSymbolTable
 70
     1
100
AcDbDimStyleTable
  0
DIMSTYLE
105
27
330
A
100
AcDbSymbolTableRecord
100
AcDbDimStyleTableRecord
  2
ISO-25
 70
     0
 41
2.5
 42
0.625
 43
3.75
 44
1.25
 73
     0
 74
     0
 77
     1
 78
     8
140
2.5
141
2.5
143
0.0393700787
147
0.625
171
     3
172
     1
178
     0
271
     2
272
     2
274
     3
278
    44
283
     0
284
     8
340
11
  0
ENDTAB
  0
TABLE
  2
BLOCK_RECORD
  5
1
330
0
100
AcDbSymbolTable
 70
     2
  0
BLOCK_RECORD
  5
1F
330
1
100
AcDbSymbolTableRecord
100
AcDbBlockTableRecord
  2
*Model_Space
340
22
  0
BLOCK_RECORD
  5
1B
330
1
100
AcDbSymbolTableRecord
100
AcDbBlockTableRecord
  2
*Paper_Space
340
1E
  0
BLOCK_RECORD
  5
23
330
1
100
AcDbSymbolTableRecord
100
AcDbBlockTableRecord
  2
*Paper_Space0
340
26
  0
BLOCK_RECORD
  5
85
330
1
100
AcDbSymbolTableRecord
100
AcDbBlockTableRecord
  2
SW_CENTERMARKSYMBOL_0
340
0
102
{BLKREFS
331
90
102
}
  0
ENDTAB
  0
ENDSEC
  0
SECTION
  2
BLOCKS
  0
BLOCK
  5
20
330
1F
100
AcDbEntity
  8
0
100
AcDbBlockBegin
  2
*Model_Space
 70
     0
 10
0.0
 20
0.0
 30
0.0
  3
*Model_Space
  1

  0
ENDBLK
  5
21
330
1F
100
AcDbEntity
  8
0
100
AcDbBlockEnd
  0
BLOCK
  5
1C
330
1B
100
AcDbEntity
 67
     1
  8
0
100
AcDbBlockBegin
  2
*Paper_Space
 70
     0
 10
0.0
 20
0.0
 30
0.0
  3
*Paper_Space
  1

  0
ENDBLK
  5
1D
330
1B
100
AcDbEntity
 67
     1
  8
0
100
AcDbBlockEnd
  0
BLOCK
  5
24
330
23
100
AcDbEntity
  8
0
100
AcDbBlockBegin
  2
*Paper_Space0
 70
     0
 10
0.0
 20
0.0
 30
0.0
  3
*Paper_Space0
  1

  0
ENDBLK
  5
25
330
23
100
AcDbEntity
  8
0
100
AcDbBlockEnd
  0
BLOCK
  5
86
330
85
100
AcDbEntity
  8
0
100
AcDbBlockBegin
  2
SW_CENTERMARKSYMBOL_0
 70
     0
 10
0.0
 20
0.0
 30
0.0
  3
SW_CENTERMARKSYMBOL_0
  1

  0
LINE
  5
88
330
85
100
AcDbEntity
  8
FORMAT
 62
     0
100
AcDbLine
 10
0.0
 20
0.0
 30
0.0
 11
0.0
 21
2.5
 31
0.0
  0
LINE
  5
89
330
85
100
AcDbEntity
  8
FORMAT
 62
     0
100
AcDbLine
 10
0.0
 20
0.0
 30
0.0
 11
-2.5
 21
0.0
 31
0.0
  0
LINE
  5
8A
330
85
100
AcDbEntity
  8
FORMAT
 62
     0
100
AcDbLine
 10
0.0
 20
0.0
 30
0.0
 11
0.0
 21
-2.5
 31
0.0
  0
LINE
  5
8B
330
85
100
AcDbEntity
  8
FORMAT
 62
     0
100
AcDbLine
 10
0.0
 20
0.0
 30
0.0
 11
2.5
 21
0.0
 31
0.0
  0
LINE
  5
8C
330
85
100
AcDbEntity
  8
FORMAT
 62
     0
100
AcDbLine
 10
0.0
 20
5.0
 30
0.0
 11
0.0
 21
47.5
 31
0.0
  0
LINE
  5
8D
330
85
100
AcDbEntity
  8
FORMAT
 62
     0
100
AcDbLine
 10
-5.0
 20
0.0
 30
0.0
 11
-47.5
 21
0.0
 31
0.0
  0
LINE
  5
8E
330
85
100
AcDbEntity
  8
FORMAT
 62
     0
100
AcDbLine
 10
0.0
 20
-5.0
 30
0.0
 11
0.0
 21
-47.5
 31
0.0
  0
LINE
  5
8F
330
85
100
AcDbEntity
  8
FORMAT
 62
     0
100
AcDbLine
 10
5.0
 20
0.0
 30
0.0
 11
47.5
 21
0.0
 31
0.0
  0
ENDBLK
  5
87
330
85
100
AcDbEntity
  8
0
100
AcDbBlockEnd
  0
ENDSEC
  0
SECTION
  2
ENTITIES
  0
CIRCLE
  5
83
330
1F
100
AcDbEntity
  8
0
  6
Continuous
 62
     7
370
    25
100
AcDbCircle
 10
142.6701850862
 20
106.7480747904
 30
0.0
 40
44.99999999999998
  0
CIRCLE
  5
84
330
1F
100
AcDbEntity
  8
0
  6
Continuous
 62
     7
370
    25
100
AcDbCircle
 10
142.6701850862
 20
106.7480747904
 30
0.0
 40
39.59999999999999
  0
INSERT
  5
90
330
1F
100
AcDbEntity
  8
FORMAT
 62
     7
100
AcDbBlockReference
  2
SW_CENTERMARKSYMBOL_0
 10
142.6701850862
 20
106.7480747904
 30
0.0
  0
LINE
  5
91
330
1F
100
AcDbEntity
  8
0
  6
Continuous
 62
     7
370
    25
100
AcDbLine
 10
97.6701850862
 20
11.6818229214
 30
0.0
 11
97.6701850862
 21
-75.5833748358
 31
0.0
  0
LINE
  5
92
330
1F
100
AcDbEntity
  8
0
  6
Continuous
 62
     7
370
    25
100
AcDbLine
 10
187.6701850862
 20
-75.5833748358
 30
0.0
 11
187.6701850862
 21
11.6818229214
 31
0.0
  0
ARC
  5
93
330
1F
100
AcDbEntity
  8
0
  6
Continuous
 62
     7
370
    25
100
AcDbCircle
 10
141.4456852805
 20
99.0124601166
 30
0.0
 40
180.0000000000001
100
AcDbArc
 50
255.9246797746
 51
270.0
  0
ARC
  5
94
330
1F
100
AcDbEntity
  8
0
  6
Continuous
 62
     7
370
    25
100
AcDbCircle
 10
143.8946848919
 20
99.0124601166
 30
0.0
 40
180.0000000000001
100
AcDbArc
 50
270.0
 51
284.0753202254
  0
LINE
  5
95
330
1F
100
AcDbEntity
  8
0
  6
Continuous
 62
     7
370
    25
100
AcDbLine
 10
141.4456852805
 20
-80.9875398834
 30
0.0
 11
143.8946848919
 21
-80.9875398834
 31
0.0
  0
LINE
  5
96
330
1F
100
AcDbEntity
  8
0
  6
Continuous
 62
     7
370
    25
100
AcDbLine
 10
142.6701850862
 20
11.6818229214
 30
0.0
 11
187.6701850862
 21
11.6818229214
 31
0.0
  0
LINE
  5
97
330
1F
100
AcDbEntity
  8
0
  6
Continuous
 62
     7
370
    25
100
AcDbLine
 10
97.6701850862
 20
11.6818229214
 30
0.0
 11
142.6701850862
 21
11.6818229214
 31
0.0
  0
LINE
  5
98
330
1F
100
AcDbEntity
  8
0
  6
Continuous
 62
     7
370
    25
100
AcDbLine
 10
142.6701850862
 20
-75.5833748358
 30
0.0
 11
187.6701850862
 21
-75.5833748358
 31
0.0
  0
LINE
  5
99
330
1F
100
AcDbEntity
  8
0
  6
Continuous
 62
     7
370
    25
100
AcDbLine
 10
97.6701850862
 20
-75.5833748358
 30
0.0
 11
142.6701850862
 21
-75.5833748358
 31
0.0
  0
LINE
  5
9A
330
1F
100
AcDbEntity
  8
0
  6
Continuous
 62
     7
370
    25
100
AcDbLine
 10
187.6701850862
 20
188.8437482009
 30
0.0
 11
187.6701850862
 21
276.108945958
 31
0.0
  0
LINE
  5
9B
330
1F
100
AcDbEntity
  8
0
  6
Continuous
 62
     7
370
    25
100
AcDbLine
 10
97.6701850862
 20
276.108945958
 30
0.0
 11
97.6701850862
 21
188.8437482009
 31
0.0
  0
ARC
  5
9C
330
1F
100
AcDbEntity
  8
0
  6
Continuous
 62
     7
370
    25
100
AcDbCircle
 10
143.8946848919
 20
101.5131110056
 30
0.0
 40
180.0000000000001
100
AcDbArc
 50
75.9246797746
 51
90.0
  0
ARC
  5
9D
330
1F
100
AcDbEntity
  8
0
  6
Continuous
 62
     7
370
    25
100
AcDbCircle
 10
141.4456852805
 20
101.5131110056
 30
0.0
 40
180.0000000000001
100
AcDbArc
 50
90.0
 51
104.0753202254
  0
LINE
  5
9E
330
1F
100
AcDbEntity
  8
0
  6
Continuous
 62
     7
370
    25
100
AcDbLine
 10
143.8946848919
 20
281.5131110056
 30
0.0
 11
141.4456852805
 21
281.5131110056
 31
0.0
  0
LINE
  5
9F
330
1F
100
AcDbEntity
  8
0
  6
Continuous
 62
     7
370
    25
100
AcDbLine
 10
187.6701850862
 20
188.8437482009
 30
0.0
 11
97.6701850862
 21
188.8437482009
 31
0.0
  0
LINE
  5
A0
330
1F
100
AcDbEntity
  8
0
  6
Continuous
 62
     7
370
    25
100
AcDbLine
 10
187.6701850862
 20
276.108945958
 30
0.0
 11
97.6701850862
 21
276.108945958
 31
0.0
  0
LINE
  5
A1
330
1F
100
AcDbEntity
  8
0
  6
Continuous
 62
     7
370
    25
100
AcDbLine
 10
318.1060410755
 20
151.7480747904
 30
0.0
 11
230.8408433183
 21
151.7480747904
 31
0.0
  0
LINE
  5
A2
330
1F
100
AcDbEntity
  8
0
  6
Continuous
 62
     7
370
    25
100
AcDbLine
 10
230.8408433183
 20
61.7480747904
 30
0.0
 11
318.1060410755
 21
61.7480747904
 31
0.0
  0
ARC
  5
A3
330
1F
100
AcDbEntity
  8
0
  6
Continuous
 62
     7
370
    25
100
AcDbCircle
 10
405.4366782708
 20
107.9725745961
 30
0.0
 40
180.0
100
AcDbArc
 50
165.9246797746
 51
180.0
  0
ARC
  5
A4
330
1F
100
AcDbEntity
  8
0
  6
Continuous
 62
     7
370
    25
100
AcDbCircle
 10
405.4366782708
 20
105.5235749847
 30
0.0
 40
180.0
100
AcDbArc
 50
180.0
 51
194.0753202254
  0
LINE
  5
A5
330
1F
100
AcDbEntity
  8
0
  6
Continuous
 62
     7
370
    25
100
AcDbLine
 10
225.4366782708
 20
107.9725745961
 30
0.0
 11
225.4366782708
 21
105.5235749847
 31
0.0
  0
LINE
  5
A6
330
1F
100
AcDbEntity
  8
0
  6
Continuous
 62
     7
370
    25
100
AcDbLine
 10
318.1060410755
 20
151.7480747904
 30
0.0
 11
318.1060410755
 21
61.7480747904
 31
0.0
  0
LINE
  5
A7
330
1F
100
AcDbEntity
  8
0
  6
Continuous
 62
     7
370
    25
100
AcDbLine
 10
230.8408433183
 20
151.7480747904
 30
0.0
 11
230.8408433183
 21
61.7480747904
 31
0.0
  0
LINE
  5
A8
330
1F
100
AcDbEntity
  8
0
  6
Continuous
 62
     7
370
    25
100
AcDbLine
 10
-34.4221092092
 20
61.7480747904
 30
0.0
 11
52.8430885479
 21
61.7480747904
 31
0.0
  0
LINE
  5
A9
330
1F
100
AcDbEntity
  8
0
  6
Continuous
 62
     7
370
    25
100
AcDbLine
 10
52.8430885479
 20
151.7480747904
 30
0.0
 11
-34.4221092092
 21
151.7480747904
 31
0.0
  0
ARC
  5
AA
330
1F
100
AcDbEntity
  8
0
  6
Continuous
 62
     7
370
    25
100
AcDbCircle
 10
-121.7527464045
 20
105.5235749847
 30
0.0
 40
180.0000000000001
100
AcDbArc
 50
345.9246797746
 51
0.0
  0
ARC
  5
AB
330
1F
100
AcDbEntity
  8
0
  6
Continuous
 62
     7
370
    25
100
AcDbCircle
 10
-121.7527464045
 20
107.9725745961
 30
0.0
 40
180.0000000000001
100
AcDbArc
 50
0.0
 51
14.0753202254
  0
LINE
  5
AC
330
1F
100
AcDbEntity
  8
0
  6
Continuous
 62
     7
370
    25
100
AcDbLine
 10
58.2472535955
 20
105.5235749847
 30
0.0
 11
58.2472535955
 21
107.9725745961
 31
0.0
  0
LINE
  5
AD
330
1F
100
AcDbEntity
  8
0
  6
Continuous
 62
     7
370
    25
100
AcDbLine
 10
-34.4221092092
 20
61.7480747904
 30
0.0
 11
-34.4221092092
 21
151.7480747904
 31
0.0
  0
LINE
  5
AE
330
1F
100
AcDbEntity
  8
0
  6
Continuous
 62
     7
370
    25
100
AcDbLine
 10
52.8430885479
 20
61.7480747904
 30
0.0
 11
52.8430885479
 21
151.7480747904
 31
0.0
  0
LINE
  5
AF
330
1F
100
AcDbEntity
  8
0
  6
Continuous
 62
     7
370
    25
100
AcDbLine
 10
231.340342493
 20
-63.1463973543
 30
0.0
 11
293.0461555886
 21
-98.7684050186
 31
0.0
  0
LINE
  5
B0
330
1F
100
AcDbEntity
  8
0
  6
Continuous
 62
     7
370
    25
100
AcDbLine
 10
338.0424985573
 20
-20.8240074044
 30
0.0
 11
276.3366854616
 21
14.79800026
 31
0.0
  0
LWPOLYLINE
  5
B1
330
1F
100
AcDbEntity
  8
0
  6
Continuous
 62
     7
370
    25
100
AcDbPolyline
 90
      129
 70
   128
 43
0.0
 10
253.8385139773
 20
-60.918535082
 10
255.3998378137
 20
-59.9729418541
 10
256.9574002843
 20
-58.9411063179
 10
258.5074490845
 20
-57.8255142557
 10
260.0462500111
 20
-56.6288532265
 10
261.5700959579
 20
-55.3540060914
 10
263.0753158465
 20
-54.004044069
 10
264.5582834704
 20
-52.5822193359
 10
266.0154262306
 20
-51.0919571924
 10
267.4432337426
 20
-49.5368478107
 10
268.838266293
 20
-47.9206375854
 10
270.1971631263
 20
-46.2472201085
 10
271.516650541
 20
-44.5206267893
 10
272.7935497762
 20
-42.7450171423
 10
274.02478467
 20
-40.9246687667
 10
275.2073890695
 20
-39.0639670412
 10
276.3385139773
 20
-37.1673945592
 10
277.4154344143
 20
-35.2395203299
 10
278.4355559848
 20
-33.2849887713
 10
279.3964211267
 20
-31.308508521
 10
280.2957150317
 20
-29.314841093
 10
281.131271222
 20
-27.308789407
 10
281.9010767695
 20
-25.2951862169
 10
282.6032771452
 20
-23.2788824694
 10
283.236180687
 20
-21.2647356168
 10
283.7982626747
 20
-19.2575979151
 10
284.2881690037
 20
-17.2623047351
 10
284.7047194466
 20
-15.2836629126
 10
285.046910497
 20
-13.3264391692
 10
285.3139177867
 20
-11.3953486283
 10
285.5050980716
 20
-9.4950434562
 10
285.6199907818
 20
-7.6301016544
 10
285.6583191307
 20
-5.8050160311
 10
285.6199907818
 20
-4.0241833775
 10
285.5050980716
 20
-2.2918938753
 10
285.3139177867
 20
-0.6123207617
 10
285.046910497
 20
1.0104897245
 10
284.7047194466
 20
2.5726280907
 10
284.2881690037
 20
4.0703310088
 10
283.7982626747
 20
5.4999903813
 10
283.236180687
 20
6.8581620335
 10
282.6032771452
 20
8.141574011
 10
281.9010767695
 20
9.3471344618
 10
281.131271222
 20
10.4719390853
 10
280.2957150317
 20
11.5132781286
 10
279.3964211267
 20
12.4686429147
 10
278.4355559848
 20
13.3357318862
 10
277.4154344143
 20
14.1124561499
 10
276.3385139773
 20
14.7969445088
 10
275.2073890695
 20
15.3875479706
 10
274.02478467
 20
15.8828437199
 10
272.7935497762
 20
16.2816385458
 10
271.516650541
 20
16.5829717166
 10
270.1971631263
 20
16.7861172944
 10
268.838266293
 20
16.8905858835
 10
267.4432337426
 20
16.8961258102
 10
266.0154262306
 20
16.8027237281
 10
264.5582834704
 20
16.6106046511
 10
263.0753158465
 20
16.3202314109
 10
261.5700959579
 20
15.932303542
 10
260.0462500111
 20
15.4477555967
 10
258.5074490845
 20
14.8677548933
 10
256.9574002843
 20
14.1936987045
 10
255.3998378137
 20
13.4272108905
 10
253.8385139773
 20
12.5701379877
 10
252.2771901408
 20
11.6245447598
 10
250.7196276703
 20
10.5927092237
 10
249.16957887
 20
9.4771171615
 10
247.6307779434
 20
8.2804561322
 10
246.1069319966
 20
7.0056089972
 10
244.601712108
 20
5.6556469747
 10
243.1187444842
 20
4.2338222416
 10
241.661601724
 20
2.7435600982
 10
240.233794212
 20
1.1884507164
 10
238.8387616615
 20
-0.4277595089
 10
237.4798648282
 20
-2.1011769858
 10
236.1603774136
 20
-3.827770305
 10
234.8834781783
 20
-5.603379952
 10
233.6522432846
 20
-7.4237283275
 10
232.469638885
 20
-9.2844300531
 10
231.3385139773
 20
-11.1810025351
 10
230.2615935403
 20
-13.1088767643
 10
229.2414719697
 20
-15.063408323
 10
228.2806068278
 20
-17.0398885733
 10
227.3813129228
 20
-19.0335560012
 10
226.5457567326
 20
-21.0396076873
 10
225.7759511851
 20
-23.0532108773
 10
225.0737508093
 20
-25.0695146248
 10
224.4408472676
 20
-27.0836614775
 10
223.8787652798
 20
-29.0907991791
 10
223.3888589509
 20
-31.0860923592
 10
222.9723085079
 20
-33.0647341816
 10
222.6301174575
 20
-35.021957925
 10
222.3631101679
 20
-36.9530484659
 10
222.1719298829
 20
-38.8533536381
 10
222.0570371727
 20
-40.7182954399
 10
222.0187088239
 20
-42.5433810631
 10
222.0570371727
 20
-44.3242137168
 10
222.1719298829
 20
-46.056503219
 10
222.3631101679
 20
-47.7360763325
 10
222.6301174575
 20
-49.3588868187
 10
222.9723085079
 20
-50.921025185
 10
223.3888589509
 20
-52.4187281031
 10
223.8787652798
 20
-53.8483874756
 10
224.4408472676
 20
-55.2065591278
 10
225.0737508093
 20
-56.4899711052
 10
225.7759511851
 20
-57.6955315561
 10
226.5457567326
 20
-58.8203361796
 10
227.3813129228
 20
-59.8616752229
 10
228.2806068278
 20
-60.817040009
 10
229.2414719697
 20
-61.6841289805
 10
230.2615935403
 20
-62.4608532441
 10
231.3385139773
 20
-63.1453416031
 10
232.469638885
 20
-63.7359450649
 10
233.6522432846
 20
-64.2312408142
 10
234.8834781783
 20
-64.6300356401
 10
236.1603774136
 20
-64.9313688109
 10
237.4798648282
 20
-65.1345143886
 10
238.8387616615
 20
-65.2389829778
 10
240.233794212
 20
-65.2445229044
 10
241.661601724
 20
-65.1511208224
 10
243.1187444842
 20
-64.9590017454
 10
244.601712108
 20
-64.6686285051
 10
246.1069319966
 20
-64.2807006363
 10
247.6307779434
 20
-63.7961526909
 10
249.16957887
 20
-63.2161519876
 10
250.7196276703
 20
-62.5420957987
 10
252.2771901408
 20
-61.7756079848
 10
253.8385139773
 20
-60.918535082
  0
LWPOLYLINE
  5
B2
330
1F
100
AcDbEntity
  8
0
  6
Continuous
 62
     7
370
    25
100
AcDbPolyline
 90
       50
 70
   128
 43
0.0
 10
315.5443270729
 20
-96.5405427464
 10
317.1056509094
 20
-95.5949495184
 10
318.6632133799
 20
-94.5631139823
 10
320.2132621802
 20
-93.4475219201
 10
321.7520631068
 20
-92.2508608909
 10
323.2759090536
 20
-90.9760137558
 10
324.7811289422
 20
-89.6260517333
 10
326.264096566
 20
-88.2042270002
 10
327.7212393262
 20
-86.7139648568
 10
329.1490468382
 20
-85.1588554751
 10
330.5440793887
 20
-83.5426452498
 10
331.902976222
 20
-81.8692277729
 10
333.2224636367
 20
-80.1426344537
 10
334.4993628719
 20
-78.3670248067
 10
335.7305977657
 20
-76.5466764311
 10
336.9132021652
 20
-74.6859747056
 10
338.0443270729
 20
-72.7894022236
 10
339.1212475099
 20
-70.8615279943
 10
340.1413690805
 20
-68.9069964357
 10
341.1022342224
 20
-66.9305161854
 10
342.0015281274
 20
-64.9368487574
 10
342.8370843176
 20
-62.9307970713
 10
343.6068898651
 20
-60.9171938813
 10
344.3090902409
 20
-58.9008901338
 10
344.9419937827
 20
-56.8867432811
 10
345.5040757704
 20
-54.8796055795
 10
345.9939820994
 20
-52.8843123995
 10
346.4105325423
 20
-50.905670577
 10
346.7527235927
 20
-48.9484468336
 10
347.0197308823
 20
-47.0173562927
 10
347.2109111673
 20
-45.1170511206
 10
347.3258038775
 20
-43.2521093188
 10
347.3641322263
 20
-41.4270236955
 10
347.3258038775
 20
-39.6461910418
 10
347.2109111673
 20
-37.9139015397
 10
347.0197308823
 20
-36.2343284261
 10
346.7527235927
 20
-34.6115179399
 10
346.4105325423
 20
-33.0493795737
 10
345.9939820994
 20
-31.5516766556
 10
345.5040757704
 20
-30.1220172831
 10
344.9419937827
 20
-28.7638456309
 10
344.3090902409
 20
-27.4804336534
 10
343.6068898651
 20
-26.2748732026
 10
342.8370843176
 20
-25.1500685791
 10
342.0015281274
 20
-24.1087295358
 10
341.1022342224
 20
-23.1533647497
 10
340.1413690805
 20
-22.2862757781
 10
339.1212475099
 20
-21.5095515145
 10
338.0443270729
 20
-20.8250631556
 10
338.0424985573
 20
-20.8240074044
  0
LWPOLYLINE
  5
B3
330
1F
100
AcDbEntity
  8
0
  6
Continuous
 62
     7
370
    25
100
AcDbPolyline
 90
       17
 70
   128
 43
0.0
 10
293.0461555886
 20
-98.7684050186
 10
294.1754519807
 20
-99.3579527293
 10
295.3580563802
 20
-99.8532484786
 10
296.589291274
 20
-100.2520433044
 10
297.8661905092
 20
-100.5533764753
 10
299.1856779239
 20
-100.756522053
 10
300.5445747572
 20
-100.8609906422
 10
301.9396073077
 20
-100.8665305688
 10
303.3674148197
 20
-100.7731284867
 10
304.8245575798
 20
-100.5810094097
 10
306.3075252037
 20
-100.2906361695
 10
307.8127450923
 20
-99.9027083006
 10
309.3365910391
 20
-99.4181603553
 10
310.8753919657
 20
-98.838159652
 10
312.425440766
 20
-98.1641034631
 10
313.9830032365
 20
-97.3976156492
 10
315.5443270729
 20
-96.5405427464
  0
LWPOLYLINE
  5
B4
330
1F
100
AcDbEntity
  8
0
  6
Continuous
 62
     7
370
    25
100
AcDbPolyline
 90
      121
 70
   128
 43
0.0
 10
253.8385139773
 20
-56.5092146978
 10
255.3039955158
 20
-55.6188961975
 10
256.7654602713
 20
-54.6423899666
 10
258.2189024705
 20
-53.5823725408
 10
259.6603383293
 20
-52.4417493543
 10
261.0858169722
 20
-51.2236467758
 10
262.4914312614
 20
-49.9314035399
 10
263.8733285057
 20
-48.5685615956
 10
265.2277210209
 20
-47.1388563977
 10
266.5508965113
 20
-45.6462066689
 10
267.8392282448
 20
-44.0947036583
 10
269.0891849936
 20
-42.4885999279
 10
270.2973407133
 20
-40.8322976964
 10
271.4603839329
 20
-39.1303367729
 10
272.5751268318
 20
-37.3873821142
 10
273.6385139773
 20
-35.6082110378
 10
274.647630699
 20
-33.7977001278
 10
275.5997110783
 20
-31.960811869
 10
276.4921455289
 20
-30.1025810443
 10
277.32248795
 20
-28.2281009352
 10
278.0884624308
 20
-26.3425093615
 10
278.7879694885
 20
-24.4509745986
 10
279.4190918229
 20
-22.5586812117
 10
279.9800995715
 20
-20.6708158456
 10
280.469455051
 20
-18.7925530079
 10
280.8858169722
 20
-16.9290408866
 10
281.2280441159
 20
-15.0853872388
 10
281.4951984613
 20
-13.2666453911
 10
281.6865477569
 20
-11.4778003884
 10
281.8015675276
 20
-9.7237553305
 10
281.8399425123
 20
-8.009317933
 10
281.8015675276
 20
-6.3391873497
 10
281.6865477569
 20
-4.7179412924
 10
281.4951984613
 20
-3.1500234839
 10
281.2280441159
 20
-1.6397314778
 10
280.8858169722
 20
-0.1912048796
 10
280.469455051
 20
1.191586
 10
279.9800995715
 20
2.5048510273
 10
279.4190918229
 20
3.7449906341
 10
278.7879694885
 20
4.9086056841
 10
278.0884624308
 20
5.9925067892
 10
277.32248795
 20
6.9937230518
 10
276.4921455289
 20
7.9095102077
 10
275.5997110783
 20
8.7373581481
 10
274.647630699
 20
9.4749977992
 10
273.6385139773
 20
10.1204073421
 10
272.5751268318
 20
10.671817754
 10
271.4603839329
 20
11.1277176573
 10
270.2973407133
 20
11.4868574622
 10
269.0891849936
 20
11.7482527913
 10
267.8392282448
 20
11.9111871782
 10
266.5508965113
 20
11.9752140311
 10
265.2277210209
 20
11.9401578568
 10
263.8733285057
 20
11.8061147419
 10
262.4914312614
 20
11.5734520893
 10
261.0858169722
 20
11.242807611
 10
259.6603383293
 20
10.8150875807
 10
258.2189024705
 20
10.2914643492
 10
256.7654602713
 20
9.6733731313
 10
255.3039955158
 20
8.9625080722
 10
253.8385139773
 20
8.1608176035
 10
252.3730324387
 20
7.2704991032
 10
250.9115676832
 20
6.2939928723
 10
249.458125484
 20
5.2339754465
 10
248.0166896253
 20
4.09335226
 10
246.5912109823
 20
2.8752496815
 10
245.1855966932
 20
1.5830064457
 10
243.8036994489
 20
0.2201645013
 10
242.4493069336
 20
-1.2095406966
 10
241.1261314433
 20
-2.7021904254
 10
239.8377997098
 20
-4.2536934359
 10
238.5878429609
 20
-5.8597971663
 10
237.3796872413
 20
-7.5160993979
 10
236.2166440217
 20
-9.2180603213
 10
235.1019011227
 20
-10.9610149801
 10
234.0385139773
 20
-12.7401860565
 10
233.0293972555
 20
-14.5506969664
 10
232.0773168763
 20
-16.3875852253
 10
231.1848824257
 20
-18.24581605
 10
230.3545400046
 20
-20.120296159
 10
229.5885655237
 20
-22.0058877327
 10
228.889058466
 20
-23.8974224957
 10
228.2579361316
 20
-25.7897158825
 10
227.696928383
 20
-27.6775812487
 10
227.2075729035
 20
-29.5558440863
 10
226.7912109823
 20
-31.4193562077
 10
226.4489838387
 20
-33.2630098554
 10
226.1818294933
 20
-35.0817517032
 10
225.9904801976
 20
-36.8705967059
 10
225.8754604269
 20
-38.6246417638
 10
225.8370854423
 20
-40.3390791612
 10
225.8754604269
 20
-42.0092097445
 10
225.9904801976
 20
-43.6304558018
 10
226.1818294933
 20
-45.1983736104
 10
226.4489838387
 20
-46.7086656165
 10
226.7912109823
 20
-48.1571922147
 10
227.2075729035
 20
-49.5399830942
 10
227.6969283831
 20
-50.8532481215
 10
228.2579361316
 20
-52.0933877284
 10
228.889058466
 20
-53.2570027783
 10
229.5885655237
 20
-54.3409038834
 10
230.3545400046
 20
-55.342120146
 10
231.1848824257
 20
-56.257907302
 10
232.0773168763
 20
-57.0857552423
 10
233.0293972555
 20
-57.8233948935
 10
234.0385139773
 20
-58.4688044363
 10
235.1019011227
 20
-59.0202148483
 10
236.2166440217
 20
-59.4761147516
 10
237.3796872413
 20
-59.8352545564
 10
238.5878429609
 20
-60.0966498855
 10
239.8377997098
 20
-60.2595842724
 10
241.1261314433
 20
-60.3236111253
 10
242.4493069336
 20
-60.2885549511
 10
243.8036994489
 20
-60.1545118362
 10
245.1855966932
 20
-59.9218491835
 10
246.5912109823
 20
-59.5912047053
 10
248.0166896253
 20
-59.1634846749
 10
249.458125484
 20
-58.6398614434
 10
250.9115676832
 20
-58.0217702256
 10
252.3730324387
 20
-57.3109051665
 10
253.8385139773
 20
-56.5092146978
  0
ENDSEC
  0
SECTION
  2
OBJECTS
  0
DICTIONARY
  5
C
330
0
100
AcDbDictionary
281
     1
  3
ACAD_GROUP
350
D
  3
ACAD_LAYOUT
350
1A
  3
ACAD_MLINESTYLE
350
17
  3
ACAD_PLOTSETTINGS
350
19
  3
ACAD_PLOTSTYLENAME
350
E
  3
ACAD_SCALELIST
350
47
  3
DWGPROPS
350
B5
  0
DICTIONARY
  5
D
102
{ACAD_REACTORS
330
C
102
}
330
C
100
AcDbDictionary
281
     1
  0
DICTIONARY
  5
1A
102
{ACAD_REACTORS
330
C
102
}
330
C
100
AcDbDictionary
281
     1
  3
Layout1
350
1E
  3
Layout2
350
26
  3
Model
350
22
  0
DICTIONARY
  5
17
102
{ACAD_REACTORS
330
C
102
}
330
C
100
AcDbDictionary
281
     1
  3
Standard
350
18
  0
DICTIONARY
  5
19
102
{ACAD_REACTORS
330
C
102
}
330
C
100
AcDbDictionary
281
     1
  0
ACDBDICTIONARYWDFLT
  5
E
102
{ACAD_REACTORS
330
C
102
}
330
C
100
AcDbDictionary
281
     1
  3
Normal
350
F
100
AcDbDictionaryWithDefault
340
F
  0
DICTIONARY
  5
47
102
{ACAD_REACTORS
330
C
102
}
330
C
100
AcDbDictionary
281
     1
  3
A0
350
48
  3
A1
350
49
  3
A2
350
4A
  3
A3
350
4B
  3
A4
350
4C
  3
A5
350
4D
  3
A6
350
4E
  3
A7
350
4F
  3
A8
350
50
  3
A9
350
51
  3
B0
350
52
  3
B1
350
53
  3
B2
350
54
  3
B3
350
55
  3
B4
350
56
  3
B5
350
57
  3
B6
350
58
  3
B7
350
59
  3
B8
350
5A
  3
B9
350
5B
  3
C0
350
5C
  3
C1
350
5D
  3
C2
350
5E
  3
C3
350
5F
  3
C4
350
60
  3
C5
350
61
  3
C6
350
62
  3
C7
350
63
  3
C8
350
64
  3
C9
350
65
  3
D0
350
66
  3
D1
350
67
  3
D2
350
68
  0
XRECORD
  5
B5
102
{ACAD_REACTORS
330
C
102
}
330
C
100
AcDbXrecord
280
     1
  1
DWGPROPS COOKIE
  2

  3

  4

  6

  7

  8
b.kav
  9

300
=
301
=
302
=
303
=
304
=
305
=
306
=
307
=
308
=
309
=
 40
0.0
 41
2460704.335168646
 42
2460704.335168877
  1

 90
        0
  0
LAYOUT
  5
1E
102
{ACAD_REACTORS
330
1A
102
}
330
1A
100
AcDbPlotSettings
  1

  2
none_device
  4

  6

 40
0.0
 41
0.0
 42
0.0
 43
0.0
 44
0.0
 45
0.0
 46
0.0
 47
0.0
 48
0.0
 49
0.0
140
0.0
141
0.0
142
1.0
143
1.0
 70
   688
 72
     1
 73
     0
 74
     5
  7

 75
    16
147
1.0
148
0.0
149
0.0
100
AcDbLayout
  1
Layout1
 70
     1
 71
     1
 10
0.0
 20
0.0
 11
420.0
 21
297.0
 12
0.0
 22
0.0
 32
0.0
 14
1.0000000000E+20
 24
1.0000000000E+20
 34
1.0000000000E+20
 15
-1.0000000000E+20
 25
-1.0000000000E+20
 35
-1.0000000000E+20
146
0.0
 13
0.0
 23
0.0
 33
0.0
 16
1.0
 26
0.0
 36
0.0
 17
0.0
 27
1.0
 37
0.0
 76
     0
330
1B
  0
LAYOUT
  5
26
102
{ACAD_REACTORS
330
1A
102
}
330
1A
100
AcDbPlotSettings
  1

  2
none_device
  4

  6

 40
0.0
 41
0.0
 42
0.0
 43
0.0
 44
0.0
 45
0.0
 46
0.0
 47
0.0
 48
0.0
 49
0.0
140
0.0
141
0.0
142
1.0
143
1.0
 70
   688
 72
     1
 73
     0
 74
     5
  7

 75
    16
147
1.0
148
0.0
149
0.0
100
AcDbLayout
  1
Layout2
 70
     1
 71
     2
 10
0.0
 20
0.0
 11
0.0
 21
0.0
 12
0.0
 22
0.0
 32
0.0
 14
0.0
 24
0.0
 34
0.0
 15
0.0
 25
0.0
 35
0.0
146
0.0
 13
0.0
 23
0.0
 33
0.0
 16
1.0
 26
0.0
 36
0.0
 17
0.0
 27
1.0
 37
0.0
 76
     0
330
23
  0
LAYOUT
  5
22
102
{ACAD_REACTORS
330
1A
102
}
330
1A
100
AcDbPlotSettings
  1

  2
none_device
  4
Letter_(8.50_x_11.00_Inches)
  6

 40
6.35
 41
6.35
 42
6.35000508
 43
6.35000508
 44
215.9
 45
279.4
 46
0.0
 47
0.0
 48
0.0
 49
0.0
140
0.0
141
0.0
142
1.0
143
1.0
 70
  1712
 72
     1
 73
     0
 74
     0
  7

 75
     0
147
1.0
148
0.0
149
0.0
100
AcDbLayout
  1
Model
 70
     1
 71
     0
 10
0.0
 20
0.0
 11
279.4
 21
215.9
 12
0.0
 22
0.0
 32
0.0
 14
0.0
 24
0.0
 34
0.0
 15
279.4
 25
215.9
 35
0.0
146
0.0
 13
0.0
 23
0.0
 33
0.0
 16
1.0
 26
0.0
 36
0.0
 17
0.0
 27
1.0
 37
0.0
 76
     0
330
1F
331
29
  0
MLINESTYLE
  5
18
102
{ACAD_REACTORS
330
17
102
}
330
17
100
AcDbMlineStyle
  2
Standard
 70
     0
  3

 62
   256
 51
90.0
 52
90.0
 71
     2
 49
0.5
 62
   256
  6
BYLAYER
 49
-0.5
 62
   256
  6
BYLAYER
  0
ACDBPLACEHOLDER
  5
F
102
{ACAD_REACTORS
330
E
102
}
330
E
  0
SCALE
  5
48
102
{ACAD_REACTORS
330
47
102
}
330
47
100
AcDbScale
 70
     0
300
1:1
140
1.0
141
1.0
290
     1
  0
SCALE
  5
49
102
{ACAD_REACTORS
330
47
102
}
330
47
100
AcDbScale
 70
     0
300
1:2
140
1.0
141
2.0
290
     0
  0
SCALE
  5
4A
102
{ACAD_REACTORS
330
47
102
}
330
47
100
AcDbScale
 70
     0
300
1:4
140
1.0
141
4.0
290
     0
  0
SCALE
  5
4B
102
{ACAD_REACTORS
330
47
102
}
330
47
100
AcDbScale
 70
     0
300
1:5
140
1.0
141
5.0
290
     0
  0
SCALE
  5
4C
102
{ACAD_REACTORS
330
47
102
}
330
47
100
AcDbScale
 70
     0
300
1:8
140
1.0
141
8.0
290
     0
  0
SCALE
  5
4D
102
{ACAD_REACTORS
330
47
102
}
330
47
100
AcDbScale
 70
     0
300
1:10
140
1.0
141
10.0
290
     0
  0
SCALE
  5
4E
102
{ACAD_REACTORS
330
47
102
}
330
47
100
AcDbScale
 70
     0
300
1:16
140
1.0
141
16.0
290
     0
  0
SCALE
  5
4F
102
{ACAD_REACTORS
330
47
102
}
330
47
100
AcDbScale
 70
     0
300
1:20
140
1.0
141
20.0
290
     0
  0
SCALE
  5
50
102
{ACAD_REACTORS
330
47
102
}
330
47
100
AcDbScale
 70
     0
300
1:30
140
1.0
141
30.0
290
     0
  0
SCALE
  5
51
102
{ACAD_REACTORS
330
47
102
}
330
47
100
AcDbScale
 70
     0
300
1:40
140
1.0
141
40.0
290
     0
  0
SCALE
  5
52
102
{ACAD_REACTORS
330
47
102
}
330
47
100
AcDbScale
 70
     0
300
1:50
140
1.0
141
50.0
290
     0
  0
SCALE
  5
53
102
{ACAD_REACTORS
330
47
102
}
330
47
100
AcDbScale
 70
     0
300
1:100
140
1.0
141
100.0
290
     0
  0
SCALE
  5
54
102
{ACAD_REACTORS
330
47
102
}
330
47
100
AcDbScale
 70
     0
300
2:1
140
2.0
141
1.0
290
     0
  0
SCALE
  5
55
102
{ACAD_REACTORS
330
47
102
}
330
47
100
AcDbScale
 70
     0
300
4:1
140
4.0
141
1.0
290
     0
  0
SCALE
  5
56
102
{ACAD_REACTORS
330
47
102
}
330
47
100
AcDbScale
 70
     0
300
8:1
140
8.0
141
1.0
290
     0
  0
SCALE
  5
57
102
{ACAD_REACTORS
330
47
102
}
330
47
100
AcDbScale
 70
     0
300
10:1
140
10.0
141
1.0
290
     0
  0
SCALE
  5
58
102
{ACAD_REACTORS
330
47
102
}
330
47
100
AcDbScale
 70
     0
300
100:1
140
100.0
141
1.0
290
     0
  0
SCALE
  5
59
102
{ACAD_REACTORS
330
47
102
}
330
47
100
AcDbScale
 70
     0
300
1/128" = 1'-0"
140
0.0078125
141
12.0
290
     0
  0
SCALE
  5
5A
102
{ACAD_REACTORS
330
47
102
}
330
47
100
AcDbScale
 70
     0
300
1/64" = 1'-0"
140
0.015625
141
12.0
290
     0
  0
SCALE
  5
5B
102
{ACAD_REACTORS
330
47
102
}
330
47
100
AcDbScale
 70
     0
300
1/32" = 1'-0"
140
0.03125
141
12.0
290
     0
  0
SCALE
  5
5C
102
{ACAD_REACTORS
330
47
102
}
330
47
100
AcDbScale
 70
     0
300
1/16" = 1'-0"
140
0.0625
141
12.0
290
     0
  0
SCALE
  5
5D
102
{ACAD_REACTORS
330
47
102
}
330
47
100
AcDbScale
 70
     0
300
3/32" = 1'-0"
140
0.09375
141
12.0
290
     0
  0
SCALE
  5
5E
102
{ACAD_REACTORS
330
47
102
}
330
47
100
AcDbScale
 70
     0
300
1/8" = 1'-0"
140
0.125
141
12.0
290
     0
  0
SCALE
  5
5F
102
{ACAD_REACTORS
330
47
102
}
330
47
100
AcDbScale
 70
     0
300
3/16" = 1'-0"
140
0.1875
141
12.0
290
     0
  0
SCALE
  5
60
102
{ACAD_REACTORS
330
47
102
}
330
47
100
AcDbScale
 70
     0
300
1/4" = 1'-0"
140
0.25
141
12.0
290
     0
  0
SCALE
  5
61
102
{ACAD_REACTORS
330
47
102
}
330
47
100
AcDbScale
 70
     0
300
3/8" = 1'-0"
140
0.375
141
12.0
290
     0
  0
SCALE
  5
62
102
{ACAD_REACTORS
330
47
102
}
330
47
100
AcDbScale
 70
     0
300
1/2" = 1'-0"
140
0.5
141
12.0
290
     0
  0
SCALE
  5
63
102
{ACAD_REACTORS
330
47
102
}
330
47
100
AcDbScale
 70
     0
300
3/4" = 1'-0"
140
0.75
141
12.0
290
     0
  0
SCALE
  5
64
102
{ACAD_REACTORS
330
47
102
}
330
47
100
AcDbScale
 70
     0
300
1" = 1'-0"
140
1.0
141
12.0
290
     0
  0
SCALE
  5
65
102
{ACAD_REACTORS
330
47
102
}
330
47
100
AcDbScale
 70
     0
300
1-1/2" = 1'-0"
140
1.5
141
12.0
290
     0
  0
SCALE
  5
66
102
{ACAD_REACTORS
330
47
102
}
330
47
100
AcDbScale
 70
     0
300
3" = 1'-0"
140
3.0
141
12.0
290
     0
  0
SCALE
  5
67
102
{ACAD_REACTORS
330
47
102
}
330
47
100
AcDbScale
 70
     0
300
6" = 1'-0"
140
6.0
141
12.0
290
     0
  0
SCALE
  5
68
102
{ACAD_REACTORS
330
47
102
}
330
47
100
AcDbScale
 70
     0
300
1'-0" = 1'-0"
140
12.0
141
12.0
290
     0
  0
ENDSEC
  0
EOF
